Lirik dan Kunci Gitar Kerispatih – Kejujuran Hati [Tab]

Bagikan ke: facebook twitter gplus
E----------------|
B----------------|
G-------12h14----|
D-12h14----------|
A----------------|
E----------------|

  B5      C5       D5
E------------------|----------------|--------12---------------|
B/15~~~13-12h13r12-|------------12--|----12--------12---------|
G------------------|-12~~/12-14-----|-14b16-----14b16--14-16~~|
D------------------|----------------|-------------------------|
A------------------|----------------|-------------------------|
E------------------|----------------|-------------------------|

  D5       B5       C5 D5
E-------------------|--------------------|--------------------|-------------------|
B-------------12-13-|-15~~~-/13-12-13/15-|-/13-12h13p12h13P12-|-10~~\8-10-8h10p8-7|
G-------12h14-------|--------------------|--------------------|-------------------|
D-12h14-------------|--------------------|--------------------|-------------------|
A-------------------|--------------------|--------------------|-------------------|
E-------------------|--------------------|--------------------|-------------------|

E-------------------|
B-------------------|
G--7\---------------|
D--7\---------------|
A-------------------|
E-------------------|

kuakui...
-----------------------------------------------------------------------------------
03:45

  F#5   D5     F#5
E--------------------|-------------------|--------------------------------|
B-10~~---10~10~10~10~|-17b19~r17-14~~----|--------14----14----------------|
G-----12b14b14b14b14-|-------------------|--14h16|---16b18r16~16-14-16b18-|
D--------------------|---------------/14h16-------------------------------|
A--------------------|-------------------|--------------------------------|
E--------------------|-------------------|--------------------------------|

   D5
E------------16b17-14h16r14------|--------------------|
B-14--14--17---------------17r14-|-17b~~--------------|
G-16b----------------------------|------16b-14h16p14--|
D--------------------------------|--------------------|
A--------------------------------|--------------------|
E--------------------------------|--------------------|


papap... padadap
papap... padadap
papap... padadap
papap... padadap

c5 C5 C5
E-------------------|-------------------------------|-------------------------------|
B-/20~\-/19~\-/17~--|-15h17p15h17p15-13h15p13h15p13-|-12h13p12h13p12-10h12P10h12P10-|
G-------------------|-------------------------------|-------------------------------|
D-------------------|-------------------------------|-------------------------------|
A-------------------|-------------------------------|-------------------------------|
E-------------------|-------------------------------|-------------------------------|


E-------------------|-------------------------------|-------------------------------|
B-8h10p8h10p8-------|-8p7b8p3h5---------------------|-------------------------------|
G-------------------|-------------7-5\---------12h14|-12h13p12h13p12/15~~-----------|
D-------------------|--------------------12h14------|-------------------------------|
A-------------------|-------------------------------|-------------------------------|
E-------------------|-------------------------------|-------------------------------| 

Previous post:

Next post: