Bagikan Kunci Gitar: facebook twitter gplus Email Email
Kuburan
INFO CHORD

Kuburan – A Letter To Euis

Artis:

Kuburan

Chord Update:
Kuburan A Letter To Euis Chord

[Intro] G Bm-C D-C-Bm-D-C-Bm-G
        Bm-C D-C-Bm-D-C-Bm-G

        G Bm-C D-C-Bm-D-C-Bm-G 2x


[chorus]

G  Bm-C D-C-Bm-D-C-Bm-G
Si euis mojang parahiyangan
   Bm-C  D-C-Bm-D-C-Bm-G
campuran indo belanda subang

G                        C
ayahnya subang ibu amsterdam
            D                 G
lahir di lembang mojang priangan
G                         C
ayahnya subang ibu amsterdam
          D               G
meniti karir di kota kembang


[Intro] G Bm-C D-C-Bm-D-C-Bm-G 2x


G            Bm 
Euis pujaan seribu orang
      C               D
senyummu bagaikan bintang
G              Bm
wajahmu elok tiada bandingan
      C               D
harummu taburkan kenangan


Back to [chorus] [Intro]


G                  Bm
memandang si Euis jemur pakaian
      C                 D
seperti britney spears telanjang
G                Bm
memandang dirimu sedang berjalan 
        C               D
jantung terasa berdetak kencang


Back to [chorus] [Intro]

               
Interlude : 
E-----------------------------------------------------------------|
B-----------------------------------------------------------------|
G----------------------------------------------------7-5-4-7-5-4---|
D----------------------4-45------------------4-45------------------|
A--------22-2-23----555-5---------2-23----555-5--------------------|
E---3------3-3-----------------333-3-------------------------------|


E------------------------------------------------------------------|
B------------------------------------------------------------------|
G------------------------------------------------------------------|
D------------------------------------------------------------------|
A------4-4------4-4-----4-4-------4-4------------------------------|
E---333-3-3--333-3-3--333-3-3--333-3-3-----------------------------|



C           D
wooooooo woooooaaaaa wo
C           G
wooooooo wooooooooooo 2x

C     D    G F#m Em   C   D-D  D-D 
ternyata si Euis ku, Euis gelo-gelo
G  C D-D  D-D 
Euis gelo-gelo  Euis gelo-gelo


C     D    G F#m Em   C   D-D  D-D
ternyata si Euis ku, Euis gelo-gelo
G  C D-D  D-D   G  C D-D  D-D
Euis gelo-gelo  Euis gelo-gelo

C    D    G-F#m-Em  
oooo oooo oo oo ooo ooo wooooo
C    D          G
Euis gelo-gelo haaaaaaaaa  

Kuburan – A Letter To Euis by lirikdankunci