Bagikan Kunci Gitar: facebook twitter gplus Email Email
thumbnail
INFO CHORD

Muse – Bliss (Acoustic)

Artis:

Muse

Chord Update:
Muse Bliss (Acoustic) Chord

   Am                                G  
e|----------0---------------0---------------3---------------3--------|
B|--------1---1-----------1---1-----------0---0-----------0---0------|
G|------2-------2-------2-------2-------0-------0-------0-------0----|
D|----2-----------2---2-----------2---0-----------0---0-----------0--|
A|--0---------------0------------------------------------------------|
E|----------------------------------3---------------3----------------|

    Dm                              Am
e|----------1---------------1---------------0----------------------------|
B|--------3---3-----------3---3-----------1---1--------------------------|
G|------2-------2-------2-------2-------2-------2------------------------|
D|----0-----------0---0-----------0---2-----------2----------------------|
A|--0---------------0---------------0---------------0--------------------|
E|-----------------------------------------------------------------------|


Am          G               Dm      Am
Everything about you is how I wanna be
      G            Dm     Am
Your freedom comes naturally
Am          G            Dm        Am
Everything about you resonates happiness
    G       Dm         Am
Now I won't settle for less

C     Am   C/G        C         Am          E     Fmaj7
      Give me all the peace and joy in your mind

Am          G                 Dm    Am
Everything about you pains my envying
      G              Dm     Am
Your soul can't hate anything
Am          G               Dm      Am
Everything about you is so easy to love
         G        Dm       Am
They're watching you from above

C     Am   C/G        C         Am          E    
      Give me all the peace and joy in your mind
           C         Am          C/G
I want the peace and joy in your mind
            C         Am          E      Fmaj7
Give me the peace and joy in your mind

Am          G            Dm         Am
Everything about you resonates happiness
       G     Dm         Am
Now I won't settle for less

C     Am   C/G        C         Am          E    
      Give me all the peace and joy in your mind
           C         Am          C/G
I want the peace and joy in your mind
            C         Am          E      Fmaj7
Give me the peace and joy in your mind

Muse – Bliss (Acoustic) by lirikdankunci

Previous post:

Next post: