Bagikan Kunci Gitar: facebook twitter gplus Email Email
The Changcuters
INFO CHORD

The Changcuters – Suka Suka

Artis:

The Changcuters

Chord Update:
The Changcuters Suka Suka Chord

[intro] A
        A D A E D A

  A
kekasih hatiku janganlah kau bermuram durja
      D                                      A
lebih baik bersepeda mengitari kota suka suka
  A
kekasih hatiku hilangkanlah semua duka lara
      D                                      A
lebih baik bersepeda mengitari kota suka suka
      D                                      A
lebih baik bersepeda mengitari kota suka suka

  A
kekasih hatiku janganlah kau bermuram durja
      D                                      A
lebih baik bersepeda mengitari kota suka suka
      D                                      A
lebih baik bersepeda mengitari kota suka suka
      D                                      A
lebih baik bersepeda mengitari kota suka suka


[interlude] A D A E D A

  A
kekasih hatiku hilangkanlah semua duka lara
      D                                      A
lebih baik bersepeda mengitari kota suka suka
      D                                      A
lebih baik bersepeda mengitari kota suka suka
      D                                      A
lebih baik bersepeda mengitari kota suka suka

A
laa la laa la laa
laa la laa la laa
laa la laa la laa
laa la laa la laa suka suka
laa la laa la laa suka suka
laa la laa la laa suka suka
laa la laa la laa suka suka

suka suka...


TAB INTRO & LAGU

6 ------------------|
5 ------------------|
4 ------------------|4x
3 -------------4-7--|
2 -----4-4-7-7------|
1 -5-5--------------|

6 ---------------------------------|
5 ---------------------------------|
4 ---------------------------------|
3 ---------------------------------|
2 -5-5-4-4-5-5-4-4-5-5-4-4-5-5-4---|
1 -------------------------------7-|

6 ------------------|
5 ------------------|
4 ------------------|2x
3 -------------4-7--|
2 -----4-4-7-7------|
1 -5-5--------------|

6 ---------------------------------|
5 ---------------------------------|
4 ---------------------------------|
3 -----6-6-9-9-6-6-----4-4-7-7-4-4-|
3 -7-7-------------5-5-------------|
1 ---------------------------------|

6 ------------------|
5 ------------------|
4 ------------------|2x
3 -------------4-7--|
2 -----4-4-7-7------|
1 -5-5--------------| 

The Changcuters – Suka Suka by lirikdankunci